ISO-10303-21;
HEADER;
/* Generated by software containing ST-Developer
 * from STEP Tools, Inc. (www.steptools.com) 
 */
/* OPTION: using custom renumber hook */

FILE_DESCRIPTION(
/* description */ ('STEP AP242 Edition 2',
'CAx-IF Rec.Pracs.---Representation and Presentation of Product Manufa
cturing Information (PMI)---4.0---2014-10-13',
'CAx-IF Rec.Pracs.---3D Tessellated Geometry---0.4---2014-09-14','2;1',
'CAx-IF Rec.Pracs.---User Defined Attributes---1.5---2016-08-15'),
/* implementation_level */ '2;1');

FILE_NAME(
/* name */ '69642dcbe10373d10dfa95eb',
/* time_stamp */ '2026-01-11T23:10:04Z',
/* author */ (''),
/* organization */ (''),
/* preprocessor_version */ 'ST-DEVELOPER v20',
/* originating_system */ 'ONSHAPE BY PTC INC, 1.209',
/* authorisation */ '  ');

FILE_SCHEMA (('AP242_MANAGED_MODEL_BASED_3D_ENGINEERING_MIM_LF { 1 0 10303 442 3 1 4 }'));
ENDSEC;

DATA;
#10=SHAPE_REPRESENTATION_RELATIONSHIP('','',#405,#11);
#11=ADVANCED_BREP_SHAPE_REPRESENTATION('',(#403),#643);
#12=CIRCLE('',#413,0.03);
#13=CIRCLE('',#414,0.03);
#14=CIRCLE('',#417,0.03);
#15=CIRCLE('',#418,0.03);
#16=CYLINDRICAL_SURFACE('',#412,0.03);
#17=CYLINDRICAL_SURFACE('',#416,0.03);
#18=ORIENTED_EDGE('',*,*,#126,.T.);
#19=ORIENTED_EDGE('',*,*,#127,.T.);
#20=ORIENTED_EDGE('',*,*,#128,.T.);
#21=ORIENTED_EDGE('',*,*,#129,.F.);
#22=ORIENTED_EDGE('',*,*,#130,.F.);
#23=ORIENTED_EDGE('',*,*,#131,.F.);
#24=ORIENTED_EDGE('',*,*,#132,.F.);
#25=ORIENTED_EDGE('',*,*,#133,.T.);
#26=ORIENTED_EDGE('',*,*,#130,.T.);
#27=ORIENTED_EDGE('',*,*,#134,.F.);
#28=ORIENTED_EDGE('',*,*,#135,.F.);
#29=ORIENTED_EDGE('',*,*,#136,.F.);
#30=ORIENTED_EDGE('',*,*,#137,.F.);
#31=ORIENTED_EDGE('',*,*,#138,.T.);
#32=ORIENTED_EDGE('',*,*,#137,.T.);
#33=ORIENTED_EDGE('',*,*,#139,.F.);
#34=ORIENTED_EDGE('',*,*,#140,.F.);
#35=ORIENTED_EDGE('',*,*,#141,.T.);
#36=ORIENTED_EDGE('',*,*,#142,.F.);
#37=ORIENTED_EDGE('',*,*,#143,.T.);
#38=ORIENTED_EDGE('',*,*,#144,.T.);
#39=ORIENTED_EDGE('',*,*,#145,.T.);
#40=ORIENTED_EDGE('',*,*,#140,.T.);
#41=ORIENTED_EDGE('',*,*,#146,.T.);
#42=ORIENTED_EDGE('',*,*,#147,.T.);
#43=ORIENTED_EDGE('',*,*,#148,.T.);
#44=ORIENTED_EDGE('',*,*,#149,.F.);
#45=ORIENTED_EDGE('',*,*,#150,.F.);
#46=ORIENTED_EDGE('',*,*,#149,.T.);
#47=ORIENTED_EDGE('',*,*,#151,.T.);
#48=ORIENTED_EDGE('',*,*,#152,.F.);
#49=ORIENTED_EDGE('',*,*,#153,.F.);
#50=ORIENTED_EDGE('',*,*,#154,.F.);
#51=ORIENTED_EDGE('',*,*,#155,.F.);
#52=ORIENTED_EDGE('',*,*,#156,.T.);
#53=ORIENTED_EDGE('',*,*,#157,.T.);
#54=ORIENTED_EDGE('',*,*,#154,.T.);
#55=ORIENTED_EDGE('',*,*,#158,.F.);
#56=ORIENTED_EDGE('',*,*,#159,.F.);
#57=ORIENTED_EDGE('',*,*,#160,.T.);
#58=ORIENTED_EDGE('',*,*,#159,.T.);
#59=ORIENTED_EDGE('',*,*,#161,.F.);
#60=ORIENTED_EDGE('',*,*,#162,.F.);
#61=ORIENTED_EDGE('',*,*,#163,.T.);
#62=ORIENTED_EDGE('',*,*,#162,.T.);
#63=ORIENTED_EDGE('',*,*,#164,.F.);
#64=ORIENTED_EDGE('',*,*,#126,.F.);
#65=ORIENTED_EDGE('',*,*,#165,.T.);
#66=ORIENTED_EDGE('',*,*,#138,.F.);
#67=ORIENTED_EDGE('',*,*,#145,.F.);
#68=ORIENTED_EDGE('',*,*,#166,.F.);
#69=ORIENTED_EDGE('',*,*,#131,.T.);
#70=ORIENTED_EDGE('',*,*,#166,.T.);
#71=ORIENTED_EDGE('',*,*,#144,.F.);
#72=ORIENTED_EDGE('',*,*,#167,.F.);
#73=ORIENTED_EDGE('',*,*,#132,.T.);
#74=ORIENTED_EDGE('',*,*,#168,.F.);
#75=ORIENTED_EDGE('',*,*,#156,.F.);
#76=ORIENTED_EDGE('',*,*,#169,.T.);
#77=ORIENTED_EDGE('',*,*,#142,.T.);
#78=ORIENTED_EDGE('',*,*,#133,.F.);
#79=ORIENTED_EDGE('',*,*,#167,.T.);
#80=ORIENTED_EDGE('',*,*,#143,.F.);
#81=ORIENTED_EDGE('',*,*,#169,.F.);
#82=ORIENTED_EDGE('',*,*,#155,.T.);
#83=ORIENTED_EDGE('',*,*,#160,.F.);
#84=ORIENTED_EDGE('',*,*,#163,.F.);
#85=ORIENTED_EDGE('',*,*,#165,.F.);
#86=ORIENTED_EDGE('',*,*,#141,.F.);
#87=ORIENTED_EDGE('',*,*,#150,.T.);
#88=ORIENTED_EDGE('',*,*,#157,.F.);
#89=ORIENTED_EDGE('',*,*,#168,.T.);
#90=ORIENTED_EDGE('',*,*,#170,.T.);
#91=ORIENTED_EDGE('',*,*,#134,.T.);
#92=ORIENTED_EDGE('',*,*,#129,.T.);
#93=ORIENTED_EDGE('',*,*,#171,.T.);
#94=ORIENTED_EDGE('',*,*,#172,.T.);
#95=ORIENTED_EDGE('',*,*,#173,.F.);
#96=ORIENTED_EDGE('',*,*,#174,.F.);
#97=ORIENTED_EDGE('',*,*,#152,.T.);
#98=ORIENTED_EDGE('',*,*,#175,.T.);
#99=ORIENTED_EDGE('',*,*,#147,.F.);
#100=ORIENTED_EDGE('',*,*,#176,.F.);
#101=ORIENTED_EDGE('',*,*,#173,.T.);
#102=ORIENTED_EDGE('',*,*,#170,.F.);
#103=ORIENTED_EDGE('',*,*,#177,.F.);
#104=ORIENTED_EDGE('',*,*,#178,.T.);
#105=ORIENTED_EDGE('',*,*,#135,.T.);
#106=ORIENTED_EDGE('',*,*,#171,.F.);
#107=ORIENTED_EDGE('',*,*,#128,.F.);
#108=ORIENTED_EDGE('',*,*,#179,.T.);
#109=ORIENTED_EDGE('',*,*,#177,.T.);
#110=ORIENTED_EDGE('',*,*,#127,.F.);
#111=ORIENTED_EDGE('',*,*,#164,.T.);
#112=ORIENTED_EDGE('',*,*,#161,.T.);
#113=ORIENTED_EDGE('',*,*,#158,.T.);
#114=ORIENTED_EDGE('',*,*,#153,.T.);
#115=ORIENTED_EDGE('',*,*,#174,.T.);
#116=ORIENTED_EDGE('',*,*,#176,.T.);
#117=ORIENTED_EDGE('',*,*,#146,.F.);
#118=ORIENTED_EDGE('',*,*,#139,.T.);
#119=ORIENTED_EDGE('',*,*,#136,.T.);
#120=ORIENTED_EDGE('',*,*,#178,.F.);
#121=ORIENTED_EDGE('',*,*,#179,.F.);
#122=ORIENTED_EDGE('',*,*,#148,.F.);
#123=ORIENTED_EDGE('',*,*,#175,.F.);
#124=ORIENTED_EDGE('',*,*,#172,.F.);
#125=ORIENTED_EDGE('',*,*,#151,.F.);
#126=EDGE_CURVE('',#180,#181,#216,.T.);
#127=EDGE_CURVE('',#181,#182,#217,.T.);
#128=EDGE_CURVE('',#182,#183,#218,.T.);
#129=EDGE_CURVE('',#184,#183,#219,.T.);
#130=EDGE_CURVE('',#185,#184,#220,.T.);
#131=EDGE_CURVE('',#186,#185,#221,.T.);
#132=EDGE_CURVE('',#187,#186,#222,.T.);
#133=EDGE_CURVE('',#187,#180,#223,.T.);
#134=EDGE_CURVE('',#188,#184,#224,.T.);
#135=EDGE_CURVE('',#189,#188,#225,.T.);
#136=EDGE_CURVE('',#190,#189,#226,.T.);
#137=EDGE_CURVE('',#191,#190,#227,.T.);
#138=EDGE_CURVE('',#191,#185,#228,.T.);
#139=EDGE_CURVE('',#192,#190,#229,.T.);
#140=EDGE_CURVE('',#193,#192,#230,.T.);
#141=EDGE_CURVE('',#193,#194,#231,.T.);
#142=EDGE_CURVE('',#195,#194,#232,.T.);
#143=EDGE_CURVE('',#195,#196,#233,.T.);
#144=EDGE_CURVE('',#196,#197,#234,.T.);
#145=EDGE_CURVE('',#197,#191,#235,.T.);
#146=EDGE_CURVE('',#192,#198,#236,.T.);
#147=EDGE_CURVE('',#198,#199,#237,.T.);
#148=EDGE_CURVE('',#199,#200,#238,.T.);
#149=EDGE_CURVE('',#201,#200,#239,.T.);
#150=EDGE_CURVE('',#193,#201,#240,.T.);
#151=EDGE_CURVE('',#200,#202,#241,.T.);
#152=EDGE_CURVE('',#203,#202,#242,.T.);
#153=EDGE_CURVE('',#204,#203,#243,.T.);
#154=EDGE_CURVE('',#205,#204,#244,.T.);
#155=EDGE_CURVE('',#206,#205,#245,.T.);
#156=EDGE_CURVE('',#206,#207,#246,.T.);
#157=EDGE_CURVE('',#207,#201,#247,.T.);
#158=EDGE_CURVE('',#208,#204,#12,.T.);
#159=EDGE_CURVE('',#209,#208,#248,.T.);
#160=EDGE_CURVE('',#209,#205,#13,.T.);
#161=EDGE_CURVE('',#210,#208,#249,.T.);
#162=EDGE_CURVE('',#211,#210,#250,.T.);
#163=EDGE_CURVE('',#211,#209,#251,.T.);
#164=EDGE_CURVE('',#181,#210,#14,.T.);
#165=EDGE_CURVE('',#180,#211,#15,.T.);
#166=EDGE_CURVE('',#186,#197,#252,.T.);
#167=EDGE_CURVE('',#187,#196,#253,.T.);
#168=EDGE_CURVE('',#207,#194,#254,.T.);
#169=EDGE_CURVE('',#206,#195,#255,.T.);
#170=EDGE_CURVE('',#212,#188,#256,.T.);
#171=EDGE_CURVE('',#183,#212,#257,.T.);
#172=EDGE_CURVE('',#202,#213,#258,.T.);
#173=EDGE_CURVE('',#214,#213,#259,.T.);
#174=EDGE_CURVE('',#203,#214,#260,.T.);
#175=EDGE_CURVE('',#213,#199,#261,.T.);
#176=EDGE_CURVE('',#214,#198,#262,.T.);
#177=EDGE_CURVE('',#215,#212,#263,.T.);
#178=EDGE_CURVE('',#215,#189,#264,.T.);
#179=EDGE_CURVE('',#182,#215,#265,.T.);
#180=VERTEX_POINT('',#534);
#181=VERTEX_POINT('',#535);
#182=VERTEX_POINT('',#537);
#183=VERTEX_POINT('',#539);
#184=VERTEX_POINT('',#541);
#185=VERTEX_POINT('',#543);
#186=VERTEX_POINT('',#545);
#187=VERTEX_POINT('',#547);
#188=VERTEX_POINT('',#551);
#189=VERTEX_POINT('',#553);
#190=VERTEX_POINT('',#555);
#191=VERTEX_POINT('',#557);
#192=VERTEX_POINT('',#561);
#193=VERTEX_POINT('',#563);
#194=VERTEX_POINT('',#565);
#195=VERTEX_POINT('',#567);
#196=VERTEX_POINT('',#569);
#197=VERTEX_POINT('',#571);
#198=VERTEX_POINT('',#575);
#199=VERTEX_POINT('',#577);
#200=VERTEX_POINT('',#579);
#201=VERTEX_POINT('',#581);
#202=VERTEX_POINT('',#585);
#203=VERTEX_POINT('',#587);
#204=VERTEX_POINT('',#589);
#205=VERTEX_POINT('',#591);
#206=VERTEX_POINT('',#593);
#207=VERTEX_POINT('',#595);
#208=VERTEX_POINT('',#599);
#209=VERTEX_POINT('',#601);
#210=VERTEX_POINT('',#605);
#211=VERTEX_POINT('',#607);
#212=VERTEX_POINT('',#623);
#213=VERTEX_POINT('',#627);
#214=VERTEX_POINT('',#629);
#215=VERTEX_POINT('',#636);
#216=LINE('',#533,#266);
#217=LINE('',#536,#267);
#218=LINE('',#538,#268);
#219=LINE('',#540,#269);
#220=LINE('',#542,#270);
#221=LINE('',#544,#271);
#222=LINE('',#546,#272);
#223=LINE('',#548,#273);
#224=LINE('',#550,#274);
#225=LINE('',#552,#275);
#226=LINE('',#554,#276);
#227=LINE('',#556,#277);
#228=LINE('',#558,#278);
#229=LINE('',#560,#279);
#230=LINE('',#562,#280);
#231=LINE('',#564,#281);
#232=LINE('',#566,#282);
#233=LINE('',#568,#283);
#234=LINE('',#570,#284);
#235=LINE('',#572,#285);
#236=LINE('',#574,#286);
#237=LINE('',#576,#287);
#238=LINE('',#578,#288);
#239=LINE('',#580,#289);
#240=LINE('',#582,#290);
#241=LINE('',#584,#291);
#242=LINE('',#586,#292);
#243=LINE('',#588,#293);
#244=LINE('',#590,#294);
#245=LINE('',#592,#295);
#246=LINE('',#594,#296);
#247=LINE('',#596,#297);
#248=LINE('',#600,#298);
#249=LINE('',#604,#299);
#250=LINE('',#606,#300);
#251=LINE('',#608,#301);
#252=LINE('',#613,#302);
#253=LINE('',#615,#303);
#254=LINE('',#617,#304);
#255=LINE('',#618,#305);
#256=LINE('',#622,#306);
#257=LINE('',#624,#307);
#258=LINE('',#626,#308);
#259=LINE('',#628,#309);
#260=LINE('',#630,#310);
#261=LINE('',#632,#311);
#262=LINE('',#633,#312);
#263=LINE('',#635,#313);
#264=LINE('',#637,#314);
#265=LINE('',#639,#315);
#266=VECTOR('',#435,1.);
#267=VECTOR('',#436,1.);
#268=VECTOR('',#437,1.);
#269=VECTOR('',#438,1.);
#270=VECTOR('',#439,1.);
#271=VECTOR('',#440,1.);
#272=VECTOR('',#441,1.);
#273=VECTOR('',#442,1.);
#274=VECTOR('',#445,1.);
#275=VECTOR('',#446,1.);
#276=VECTOR('',#447,1.);
#277=VECTOR('',#448,1.);
#278=VECTOR('',#449,1.);
#279=VECTOR('',#452,1.);
#280=VECTOR('',#453,1.);
#281=VECTOR('',#454,1.);
#282=VECTOR('',#455,1.);
#283=VECTOR('',#456,1.);
#284=VECTOR('',#457,1.);
#285=VECTOR('',#458,1.);
#286=VECTOR('',#461,1.);
#287=VECTOR('',#462,1.);
#288=VECTOR('',#463,1.);
#289=VECTOR('',#464,1.);
#290=VECTOR('',#465,1.);
#291=VECTOR('',#468,1.);
#292=VECTOR('',#469,1.);
#293=VECTOR('',#470,1.);
#294=VECTOR('',#471,1.);
#295=VECTOR('',#472,1.);
#296=VECTOR('',#473,1.);
#297=VECTOR('',#474,1.);
#298=VECTOR('',#479,1.);
#299=VECTOR('',#484,1.);
#300=VECTOR('',#485,1.);
#301=VECTOR('',#486,1.);
#302=VECTOR('',#495,1.);
#303=VECTOR('',#498,1.);
#304=VECTOR('',#501,1.);
#305=VECTOR('',#502,1.);
#306=VECTOR('',#509,1.);
#307=VECTOR('',#510,1.);
#308=VECTOR('',#513,1.);
#309=VECTOR('',#514,1.);
#310=VECTOR('',#515,1.);
#311=VECTOR('',#518,1.);
#312=VECTOR('',#519,1.);
#313=VECTOR('',#522,1.);
#314=VECTOR('',#523,1.);
#315=VECTOR('',#526,1.);
#316=EDGE_LOOP('',(#18,#19,#20,#21,#22,#23,#24,#25));
#317=EDGE_LOOP('',(#26,#27,#28,#29,#30,#31));
#318=EDGE_LOOP('',(#32,#33,#34,#35,#36,#37,#38,#39));
#319=EDGE_LOOP('',(#40,#41,#42,#43,#44,#45));
#320=EDGE_LOOP('',(#46,#47,#48,#49,#50,#51,#52,#53));
#321=EDGE_LOOP('',(#54,#55,#56,#57));
#322=EDGE_LOOP('',(#58,#59,#60,#61));
#323=EDGE_LOOP('',(#62,#63,#64,#65));
#324=EDGE_LOOP('',(#66,#67,#68,#69));
#325=EDGE_LOOP('',(#70,#71,#72,#73));
#326=EDGE_LOOP('',(#74,#75,#76,#77));
#327=EDGE_LOOP('',(#78,#79,#80,#81,#82,#83,#84,#85));
#328=EDGE_LOOP('',(#86,#87,#88,#89));
#329=EDGE_LOOP('',(#90,#91,#92,#93));
#330=EDGE_LOOP('',(#94,#95,#96,#97));
#331=EDGE_LOOP('',(#98,#99,#100,#101));
#332=EDGE_LOOP('',(#102,#103,#104,#105));
#333=EDGE_LOOP('',(#106,#107,#108,#109));
#334=EDGE_LOOP('',(#110,#111,#112,#113,#114,#115,#116,#117,#118,#119,#120,
#121));
#335=EDGE_LOOP('',(#122,#123,#124,#125));
#336=FACE_BOUND('',#316,.T.);
#337=FACE_BOUND('',#317,.T.);
#338=FACE_BOUND('',#318,.T.);
#339=FACE_BOUND('',#319,.T.);
#340=FACE_BOUND('',#320,.T.);
#341=FACE_BOUND('',#321,.T.);
#342=FACE_BOUND('',#322,.T.);
#343=FACE_BOUND('',#323,.T.);
#344=FACE_BOUND('',#324,.T.);
#345=FACE_BOUND('',#325,.T.);
#346=FACE_BOUND('',#326,.T.);
#347=FACE_BOUND('',#327,.T.);
#348=FACE_BOUND('',#328,.T.);
#349=FACE_BOUND('',#329,.T.);
#350=FACE_BOUND('',#330,.T.);
#351=FACE_BOUND('',#331,.T.);
#352=FACE_BOUND('',#332,.T.);
#353=FACE_BOUND('',#333,.T.);
#354=FACE_BOUND('',#334,.T.);
#355=FACE_BOUND('',#335,.T.);
#356=PLANE('',#407);
#357=PLANE('',#408);
#358=PLANE('',#409);
#359=PLANE('',#410);
#360=PLANE('',#411);
#361=PLANE('',#415);
#362=PLANE('',#419);
#363=PLANE('',#420);
#364=PLANE('',#421);
#365=PLANE('',#422);
#366=PLANE('',#423);
#367=PLANE('',#424);
#368=PLANE('',#425);
#369=PLANE('',#426);
#370=PLANE('',#427);
#371=PLANE('',#428);
#372=PLANE('',#429);
#373=PLANE('',#430);
#374=ADVANCED_FACE('',(#336),#356,.T.);
#375=ADVANCED_FACE('',(#337),#357,.T.);
#376=ADVANCED_FACE('',(#338),#358,.T.);
#377=ADVANCED_FACE('',(#339),#359,.F.);
#378=ADVANCED_FACE('',(#340),#360,.F.);
#379=ADVANCED_FACE('',(#341),#16,.F.);
#380=ADVANCED_FACE('',(#342),#361,.T.);
#381=ADVANCED_FACE('',(#343),#17,.F.);
#382=ADVANCED_FACE('',(#344),#362,.F.);
#383=ADVANCED_FACE('',(#345),#363,.F.);
#384=ADVANCED_FACE('',(#346),#364,.T.);
#385=ADVANCED_FACE('',(#347),#365,.T.);
#386=ADVANCED_FACE('',(#348),#366,.F.);
#387=ADVANCED_FACE('',(#349),#367,.F.);
#388=ADVANCED_FACE('',(#350),#368,.F.);
#389=ADVANCED_FACE('',(#351),#369,.F.);
#390=ADVANCED_FACE('',(#352),#370,.T.);
#391=ADVANCED_FACE('',(#353),#371,.T.);
#392=ADVANCED_FACE('',(#354),#372,.T.);
#393=ADVANCED_FACE('',(#355),#373,.F.);
#394=CLOSED_SHELL('',(#374,#375,#376,#377,#378,#379,#380,#381,#382,#383,
#384,#385,#386,#387,#388,#389,#390,#391,#392,#393));
#395=STYLED_ITEM('',(#396),#403);
#396=PRESENTATION_STYLE_ASSIGNMENT((#397));
#397=SURFACE_STYLE_USAGE(.BOTH.,#398);
#398=SURFACE_SIDE_STYLE('',(#399));
#399=SURFACE_STYLE_FILL_AREA(#400);
#400=FILL_AREA_STYLE('',(#401));
#401=FILL_AREA_STYLE_COLOUR('',#402);
#402=COLOUR_RGB('',0.615686274509804,0.811764705882353,0.929411764705882);
#403=MANIFOLD_SOLID_BREP('Part 1',#394);
#404=SHAPE_DEFINITION_REPRESENTATION(#648,#405);
#405=SHAPE_REPRESENTATION('Part 1',(#406),#643);
#406=AXIS2_PLACEMENT_3D('',#531,#431,#432);
#407=AXIS2_PLACEMENT_3D('',#532,#433,#434);
#408=AXIS2_PLACEMENT_3D('',#549,#443,#444);
#409=AXIS2_PLACEMENT_3D('',#559,#450,#451);
#410=AXIS2_PLACEMENT_3D('',#573,#459,#460);
#411=AXIS2_PLACEMENT_3D('',#583,#466,#467);
#412=AXIS2_PLACEMENT_3D('',#597,#475,#476);
#413=AXIS2_PLACEMENT_3D('',#598,#477,#478);
#414=AXIS2_PLACEMENT_3D('',#602,#480,#481);
#415=AXIS2_PLACEMENT_3D('',#603,#482,#483);
#416=AXIS2_PLACEMENT_3D('',#609,#487,#488);
#417=AXIS2_PLACEMENT_3D('',#610,#489,#490);
#418=AXIS2_PLACEMENT_3D('',#611,#491,#492);
#419=AXIS2_PLACEMENT_3D('',#612,#493,#494);
#420=AXIS2_PLACEMENT_3D('',#614,#496,#497);
#421=AXIS2_PLACEMENT_3D('',#616,#499,#500);
#422=AXIS2_PLACEMENT_3D('',#619,#503,#504);
#423=AXIS2_PLACEMENT_3D('',#620,#505,#506);
#424=AXIS2_PLACEMENT_3D('',#621,#507,#508);
#425=AXIS2_PLACEMENT_3D('',#625,#511,#512);
#426=AXIS2_PLACEMENT_3D('',#631,#516,#517);
#427=AXIS2_PLACEMENT_3D('',#634,#520,#521);
#428=AXIS2_PLACEMENT_3D('',#638,#524,#525);
#429=AXIS2_PLACEMENT_3D('',#640,#527,#528);
#430=AXIS2_PLACEMENT_3D('',#641,#529,#530);
#431=DIRECTION('',(0.,0.,1.));
#432=DIRECTION('',(1.,0.,0.));
#433=DIRECTION('',(0.,0.,-1.));
#434=DIRECTION('',(-1.,0.,0.));
#435=DIRECTION('',(-1.,0.,0.));
#436=DIRECTION('',(0.,1.,0.));
#437=DIRECTION('',(1.,0.,0.));
#438=DIRECTION('',(0.,1.,0.));
#439=DIRECTION('',(-1.,0.,0.));
#440=DIRECTION('',(0.,-1.,0.));
#441=DIRECTION('',(-1.,0.,0.));
#442=DIRECTION('',(0.,-1.,0.));
#443=DIRECTION('',(0.,1.,0.));
#444=DIRECTION('',(0.,0.,1.));
#445=DIRECTION('',(0.,0.,-1.));
#446=DIRECTION('',(1.,0.,0.));
#447=DIRECTION('',(0.,0.,-1.));
#448=DIRECTION('',(-1.,0.,0.));
#449=DIRECTION('',(0.,0.,-1.));
#450=DIRECTION('',(0.,0.,-1.));
#451=DIRECTION('',(-1.,0.,0.));
#452=DIRECTION('',(0.,-1.,0.));
#453=DIRECTION('',(-1.,0.,0.));
#454=DIRECTION('',(0.,-1.,0.));
#455=DIRECTION('',(-1.,0.,0.));
#456=DIRECTION('',(0.,-1.,0.));
#457=DIRECTION('',(-1.,0.,0.));
#458=DIRECTION('',(0.,-1.,0.));
#459=DIRECTION('',(0.,1.,0.));
#460=DIRECTION('',(0.,0.,1.));
#461=DIRECTION('',(0.,0.,-1.));
#462=DIRECTION('',(1.,0.,0.));
#463=DIRECTION('',(0.,0.,-1.));
#464=DIRECTION('',(-1.,0.,0.));
#465=DIRECTION('',(0.,0.,-1.));
#466=DIRECTION('',(0.,0.,1.));
#467=DIRECTION('',(1.,0.,0.));
#468=DIRECTION('',(0.,-1.,0.));
#469=DIRECTION('',(1.,0.,0.));
#470=DIRECTION('',(0.,-1.,0.));
#471=DIRECTION('',(-1.,0.,0.));
#472=DIRECTION('',(0.,1.,0.));
#473=DIRECTION('',(-1.,0.,0.));
#474=DIRECTION('',(0.,1.,0.));
#475=DIRECTION('',(-1.,0.,0.));
#476=DIRECTION('',(0.,0.,1.));
#477=DIRECTION('',(1.,0.,0.));
#478=DIRECTION('',(0.,0.,-1.));
#479=DIRECTION('',(-1.,0.,0.));
#480=DIRECTION('',(1.,0.,0.));
#481=DIRECTION('',(0.,0.,-1.));
#482=DIRECTION('',(0.,0.,1.));
#483=DIRECTION('',(1.,0.,0.));
#484=DIRECTION('',(0.,1.,0.));
#485=DIRECTION('',(-1.,0.,0.));
#486=DIRECTION('',(0.,1.,0.));
#487=DIRECTION('',(-1.,0.,0.));
#488=DIRECTION('',(0.,0.,1.));
#489=DIRECTION('',(1.,0.,0.));
#490=DIRECTION('',(0.,0.,-1.));
#491=DIRECTION('',(1.,0.,0.));
#492=DIRECTION('',(0.,0.,-1.));
#493=DIRECTION('',(1.,0.,0.));
#494=DIRECTION('',(0.,1.,0.));
#495=DIRECTION('',(0.,0.,1.));
#496=DIRECTION('',(0.,-1.,0.));
#497=DIRECTION('',(0.,0.,-1.));
#498=DIRECTION('',(0.,0.,1.));
#499=DIRECTION('',(0.,-1.,0.));
#500=DIRECTION('',(0.,0.,-1.));
#501=DIRECTION('',(0.,0.,1.));
#502=DIRECTION('',(0.,0.,1.));
#503=DIRECTION('',(1.,0.,0.));
#504=DIRECTION('',(0.,1.,0.));
#505=DIRECTION('',(1.,0.,0.));
#506=DIRECTION('',(0.,1.,0.));
#507=DIRECTION('',(-1.,0.,0.));
#508=DIRECTION('',(0.,-1.,0.));
#509=DIRECTION('',(0.,-1.,0.));
#510=DIRECTION('',(0.,0.,1.));
#511=DIRECTION('',(0.,1.,0.));
#512=DIRECTION('',(0.,0.,1.));
#513=DIRECTION('',(0.,0.,1.));
#514=DIRECTION('',(1.,0.,0.));
#515=DIRECTION('',(0.,0.,1.));
#516=DIRECTION('',(0.,0.,-1.));
#517=DIRECTION('',(-1.,0.,0.));
#518=DIRECTION('',(0.,1.,0.));
#519=DIRECTION('',(0.,1.,0.));
#520=DIRECTION('',(0.,0.,1.));
#521=DIRECTION('',(1.,0.,0.));
#522=DIRECTION('',(1.,0.,0.));
#523=DIRECTION('',(0.,-1.,0.));
#524=DIRECTION('',(0.,1.,0.));
#525=DIRECTION('',(0.,0.,1.));
#526=DIRECTION('',(0.,0.,1.));
#527=DIRECTION('',(-1.,0.,0.));
#528=DIRECTION('',(0.,-1.,0.));
#529=DIRECTION('',(-1.,0.,0.));
#530=DIRECTION('',(0.,-1.,0.));
#531=CARTESIAN_POINT('',(0.,0.,0.));
#532=CARTESIAN_POINT('',(0.05,-0.0315,-0.023));
#533=CARTESIAN_POINT('',(0.05,-0.0395,-0.023));
#534=CARTESIAN_POINT('',(0.052,-0.0395,-0.023));
#535=CARTESIAN_POINT('',(-0.003,-0.0395,-0.023));
#536=CARTESIAN_POINT('',(-0.003,-0.0225,-0.023));
#537=CARTESIAN_POINT('',(-0.003,-0.0215,-0.023));
#538=CARTESIAN_POINT('',(-0.003,-0.0215,-0.023));
#539=CARTESIAN_POINT('',(-0.001,-0.0215,-0.023));
#540=CARTESIAN_POINT('',(-0.001,-0.0225,-0.023));
#541=CARTESIAN_POINT('',(-0.001,-0.0235,-0.023));
#542=CARTESIAN_POINT('',(0.05,-0.0235,-0.023));
#543=CARTESIAN_POINT('',(0.05,-0.0235,-0.023));
#544=CARTESIAN_POINT('',(0.05,-0.0315,-0.023));
#545=CARTESIAN_POINT('',(0.05,-0.0215,-0.023));
#546=CARTESIAN_POINT('',(0.052,-0.0215,-0.023));
#547=CARTESIAN_POINT('',(0.052,-0.0215,-0.023));
#548=CARTESIAN_POINT('',(0.052,-0.0315,-0.023));
#549=CARTESIAN_POINT('',(0.05,-0.0235,-0.0115));
#550=CARTESIAN_POINT('',(-0.001,-0.0235,-0.0115));
#551=CARTESIAN_POINT('',(-0.001,-0.0235,-0.021));
#552=CARTESIAN_POINT('',(-0.003,-0.0235,-0.021));
#553=CARTESIAN_POINT('',(-0.003,-0.0235,-0.021));
#554=CARTESIAN_POINT('',(-0.003,-0.0235,-0.0115));
#555=CARTESIAN_POINT('',(-0.003,-0.0235,0.));
#556=CARTESIAN_POINT('',(0.05,-0.0235,0.));
#557=CARTESIAN_POINT('',(0.05,-0.0235,0.));
#558=CARTESIAN_POINT('',(0.05,-0.0235,-0.0115));
#559=CARTESIAN_POINT('',(0.05,-0.01175,0.));
#560=CARTESIAN_POINT('',(-0.003,-0.01175,0.));
#561=CARTESIAN_POINT('',(-0.003,0.0235,0.));
#562=CARTESIAN_POINT('',(0.05,0.0235,0.));
#563=CARTESIAN_POINT('',(0.05,0.0235,0.));
#564=CARTESIAN_POINT('',(0.05,-0.01175,0.));
#565=CARTESIAN_POINT('',(0.05,0.0215,0.));
#566=CARTESIAN_POINT('',(0.052,0.0215,0.));
#567=CARTESIAN_POINT('',(0.052,0.0215,0.));
#568=CARTESIAN_POINT('',(0.052,-0.01175,0.));
#569=CARTESIAN_POINT('',(0.052,-0.0215,0.));
#570=CARTESIAN_POINT('',(0.052,-0.0215,0.));
#571=CARTESIAN_POINT('',(0.05,-0.0215,0.));
#572=CARTESIAN_POINT('',(0.05,-0.01175,0.));
#573=CARTESIAN_POINT('',(0.05,0.0235,-0.0115));
#574=CARTESIAN_POINT('',(-0.003,0.0235,-0.0115));
#575=CARTESIAN_POINT('',(-0.003,0.0235,-0.0210171338017919));
#576=CARTESIAN_POINT('',(-0.003,0.0235,-0.0210171338017919));
#577=CARTESIAN_POINT('',(-0.001,0.0235,-0.0210171338017919));
#578=CARTESIAN_POINT('',(-0.001,0.0235,-0.0115));
#579=CARTESIAN_POINT('',(-0.001,0.0235,-0.023));
#580=CARTESIAN_POINT('',(0.05,0.0235,-0.023));
#581=CARTESIAN_POINT('',(0.05,0.0235,-0.023));
#582=CARTESIAN_POINT('',(0.05,0.0235,-0.0115));
#583=CARTESIAN_POINT('',(0.05,0.0315,-0.023));
#584=CARTESIAN_POINT('',(-0.001,0.0225,-0.023));
#585=CARTESIAN_POINT('',(-0.001,0.0215,-0.023));
#586=CARTESIAN_POINT('',(-0.003,0.0215,-0.023));
#587=CARTESIAN_POINT('',(-0.003,0.0215,-0.023));
#588=CARTESIAN_POINT('',(-0.003,0.0225,-0.023));
#589=CARTESIAN_POINT('',(-0.003,0.0395,-0.023));
#590=CARTESIAN_POINT('',(0.05,0.0395,-0.023));
#591=CARTESIAN_POINT('',(0.052,0.0395,-0.023));
#592=CARTESIAN_POINT('',(0.052,0.0315,-0.023));
#593=CARTESIAN_POINT('',(0.052,0.0215,-0.023));
#594=CARTESIAN_POINT('',(0.052,0.0215,-0.023));
#595=CARTESIAN_POINT('',(0.05,0.0215,-0.023));
#596=CARTESIAN_POINT('',(0.05,0.0315,-0.023));
#597=CARTESIAN_POINT('',(0.05,0.0554976101602233,0.00237866168972507));
#598=CARTESIAN_POINT('',(-0.003,0.0554976101602233,0.00237866168972507));
#599=CARTESIAN_POINT('',(-0.003,0.0255,0.002));
#600=CARTESIAN_POINT('',(0.05,0.0255,0.002));
#601=CARTESIAN_POINT('',(0.052,0.0255,0.002));
#602=CARTESIAN_POINT('',(0.052,0.0554976101602233,0.00237866168972507));
#603=CARTESIAN_POINT('',(0.05,0.0245,0.002));
#604=CARTESIAN_POINT('',(-0.003,0.0245,0.002));
#605=CARTESIAN_POINT('',(-0.003,-0.0255,0.002));
#606=CARTESIAN_POINT('',(0.05,-0.0255,0.002));
#607=CARTESIAN_POINT('',(0.052,-0.0255,0.002));
#608=CARTESIAN_POINT('',(0.052,0.0245,0.002));
#609=CARTESIAN_POINT('',(0.05,-0.0554976101602233,0.00237866168972506));
#610=CARTESIAN_POINT('',(-0.003,-0.0554976101602233,0.00237866168972506));
#611=CARTESIAN_POINT('',(0.052,-0.0554976101602233,0.00237866168972506));
#612=CARTESIAN_POINT('',(0.05,6.93889390390723E-18,-0.0105));
#613=CARTESIAN_POINT('',(0.05,-0.0215,-0.0115));
#614=CARTESIAN_POINT('',(0.052,-0.0215,-0.0115));
#615=CARTESIAN_POINT('',(0.052,-0.0215,-0.0115));
#616=CARTESIAN_POINT('',(0.052,0.0215,-0.0115));
#617=CARTESIAN_POINT('',(0.05,0.0215,-0.0115));
#618=CARTESIAN_POINT('',(0.052,0.0215,-0.0115));
#619=CARTESIAN_POINT('',(0.052,6.93889390390723E-18,-0.0105));
#620=CARTESIAN_POINT('',(0.05,6.93889390390723E-18,-0.0105));
#621=CARTESIAN_POINT('',(-0.001,6.93889390390723E-18,-0.0105));
#622=CARTESIAN_POINT('',(-0.001,-0.0225,-0.021));
#623=CARTESIAN_POINT('',(-0.001,-0.0215,-0.021));
#624=CARTESIAN_POINT('',(-0.001,-0.0215,-0.022));
#625=CARTESIAN_POINT('',(-0.003,0.0215,-0.022008566900896));
#626=CARTESIAN_POINT('',(-0.001,0.0215,-0.022008566900896));
#627=CARTESIAN_POINT('',(-0.001,0.0215,-0.0210171338017919));
#628=CARTESIAN_POINT('',(-0.003,0.0215,-0.0210171338017919));
#629=CARTESIAN_POINT('',(-0.003,0.0215,-0.0210171338017919));
#630=CARTESIAN_POINT('',(-0.003,0.0215,-0.022008566900896));
#631=CARTESIAN_POINT('',(-0.003,0.0225,-0.0210171338017919));
#632=CARTESIAN_POINT('',(-0.001,0.0225,-0.0210171338017919));
#633=CARTESIAN_POINT('',(-0.003,0.0225,-0.0210171338017919));
#634=CARTESIAN_POINT('',(-0.003,-0.0225,-0.021));
#635=CARTESIAN_POINT('',(-0.003,-0.0215,-0.021));
#636=CARTESIAN_POINT('',(-0.003,-0.0215,-0.021));
#637=CARTESIAN_POINT('',(-0.003,-0.0225,-0.021));
#638=CARTESIAN_POINT('',(-0.003,-0.0215,-0.022));
#639=CARTESIAN_POINT('',(-0.003,-0.0215,-0.022));
#640=CARTESIAN_POINT('',(-0.003,6.93889390390723E-18,-0.0105));
#641=CARTESIAN_POINT('',(-0.001,6.93889390390723E-18,-0.0105));
#642=MECHANICAL_DESIGN_GEOMETRIC_PRESENTATION_REPRESENTATION('',(#395),
#643);
#643=(
GEOMETRIC_REPRESENTATION_CONTEXT(3)
GLOBAL_UNCERTAINTY_ASSIGNED_CONTEXT((#644))
GLOBAL_UNIT_ASSIGNED_CONTEXT((#647,#646,#645))
REPRESENTATION_CONTEXT('Part 1','TOP_LEVEL_ASSEMBLY_PART')
);
#644=UNCERTAINTY_MEASURE_WITH_UNIT(LENGTH_MEASURE(1.E-8),#647,
'DISTANCE_ACCURACY_VALUE','Maximum Tolerance applied to model');
#645=(
NAMED_UNIT(*)
SI_UNIT($,.STERADIAN.)
SOLID_ANGLE_UNIT()
);
#646=(
NAMED_UNIT(*)
PLANE_ANGLE_UNIT()
SI_UNIT($,.RADIAN.)
);
#647=(
LENGTH_UNIT()
NAMED_UNIT(*)
SI_UNIT($,.METRE.)
);
#648=PRODUCT_DEFINITION_SHAPE('','',#649);
#649=PRODUCT_DEFINITION('','',#651,#650);
#650=PRODUCT_DEFINITION_CONTEXT('',#657,'design');
#651=PRODUCT_DEFINITION_FORMATION_WITH_SPECIFIED_SOURCE('','',#653,
 .NOT_KNOWN.);
#652=PRODUCT_RELATED_PRODUCT_CATEGORY('','',(#653));
#653=PRODUCT('Part 1','Part 1','Part 1',(#655));
#654=PRODUCT_CATEGORY('','');
#655=PRODUCT_CONTEXT('',#657,'mechanical');
#656=APPLICATION_PROTOCOL_DEFINITION('international standard',
'ap242_managed_model_based_3d_engineering',2020,#657);
#657=APPLICATION_CONTEXT('managed model based 3d engineering');
ENDSEC;
END-ISO-10303-21;
